ISO-10303-21;
HEADER;
/* Generated by software containing ST-Developer
 * from STEP Tools, Inc. (www.steptools.com) 
 */

FILE_DESCRIPTION(
/* description */ (''),
/* implementation_level */ '2;1');

FILE_NAME(
/* name */ 'Dteleur (TT).step',
/* time_stamp */ '2024-09-12T14:20:13+02:00',
/* author */ (''),
/* organization */ (''),
/* preprocessor_version */ 'ST-DEVELOPER v20',
/* originating_system */ 'Autodesk Translation Framework v13.14.0.145',

/* authorisation */ '');

FILE_SCHEMA (('AUTOMOTIVE_DESIGN { 1 0 10303 214 3 1 1 }'));
ENDSEC;

DATA;
#10=MECHANICAL_DESIGN_GEOMETRIC_PRESENTATION_REPRESENTATION('',(#13),#627);
#11=SHAPE_REPRESENTATION_RELATIONSHIP('SRR','None',#634,#12);
#12=ADVANCED_BREP_SHAPE_REPRESENTATION('',(#14),#626);
#13=STYLED_ITEM('',(#643),#14);
#14=MANIFOLD_SOLID_BREP('Support',#383);
#15=FACE_BOUND('',#68,.T.);
#16=FACE_BOUND('',#69,.T.);
#17=FACE_BOUND('',#72,.T.);
#18=FACE_BOUND('',#74,.T.);
#19=FACE_BOUND('',#78,.T.);
#20=FACE_BOUND('',#83,.T.);
#21=PLANE('',#403);
#22=PLANE('',#404);
#23=PLANE('',#405);
#24=PLANE('',#406);
#25=PLANE('',#407);
#26=PLANE('',#408);
#27=PLANE('',#409);
#28=PLANE('',#410);
#29=PLANE('',#411);
#30=PLANE('',#412);
#31=PLANE('',#413);
#32=PLANE('',#414);
#33=PLANE('',#415);
#34=PLANE('',#416);
#35=PLANE('',#420);
#36=PLANE('',#421);
#37=PLANE('',#422);
#38=FACE_OUTER_BOUND('',#58,.T.);
#39=FACE_OUTER_BOUND('',#59,.T.);
#40=FACE_OUTER_BOUND('',#60,.T.);
#41=FACE_OUTER_BOUND('',#61,.T.);
#42=FACE_OUTER_BOUND('',#62,.T.);
#43=FACE_OUTER_BOUND('',#63,.T.);
#44=FACE_OUTER_BOUND('',#64,.T.);
#45=FACE_OUTER_BOUND('',#65,.T.);
#46=FACE_OUTER_BOUND('',#66,.T.);
#47=FACE_OUTER_BOUND('',#67,.T.);
#48=FACE_OUTER_BOUND('',#70,.T.);
#49=FACE_OUTER_BOUND('',#71,.T.);
#50=FACE_OUTER_BOUND('',#73,.T.);
#51=FACE_OUTER_BOUND('',#75,.T.);
#52=FACE_OUTER_BOUND('',#76,.T.);
#53=FACE_OUTER_BOUND('',#77,.T.);
#54=FACE_OUTER_BOUND('',#79,.T.);
#55=FACE_OUTER_BOUND('',#80,.T.);
#56=FACE_OUTER_BOUND('',#81,.T.);
#57=FACE_OUTER_BOUND('',#82,.T.);
#58=EDGE_LOOP('',(#260,#261,#262,#263));
#59=EDGE_LOOP('',(#264,#265,#266,#267));
#60=EDGE_LOOP('',(#268,#269,#270,#271));
#61=EDGE_LOOP('',(#272,#273,#274,#275));
#62=EDGE_LOOP('',(#276,#277,#278,#279));
#63=EDGE_LOOP('',(#280,#281,#282,#283));
#64=EDGE_LOOP('',(#284,#285,#286,#287,#288,#289,#290,#291));
#65=EDGE_LOOP('',(#292,#293,#294,#295));
#66=EDGE_LOOP('',(#296,#297,#298,#299));
#67=EDGE_LOOP('',(#300,#301,#302,#303));
#68=EDGE_LOOP('',(#304));
#69=EDGE_LOOP('',(#305));
#70=EDGE_LOOP('',(#306,#307,#308,#309));
#71=EDGE_LOOP('',(#310,#311,#312,#313,#314,#315));
#72=EDGE_LOOP('',(#316));
#73=EDGE_LOOP('',(#317,#318,#319,#320,#321,#322));
#74=EDGE_LOOP('',(#323));
#75=EDGE_LOOP('',(#324,#325,#326,#327,#328,#329,#330,#331));
#76=EDGE_LOOP('',(#332,#333,#334,#335));
#77=EDGE_LOOP('',(#336,#337,#338,#339,#340));
#78=EDGE_LOOP('',(#341));
#79=EDGE_LOOP('',(#342,#343,#344,#345));
#80=EDGE_LOOP('',(#346,#347,#348,#349));
#81=EDGE_LOOP('',(#350,#351,#352,#353));
#82=EDGE_LOOP('',(#354,#355,#356,#357,#358));
#83=EDGE_LOOP('',(#359));
#84=LINE('',#526,#128);
#85=LINE('',#532,#129);
#86=LINE('',#537,#130);
#87=LINE('',#539,#131);
#88=LINE('',#541,#132);
#89=LINE('',#542,#133);
#90=LINE('',#546,#134);
#91=LINE('',#548,#135);
#92=LINE('',#550,#136);
#93=LINE('',#551,#137);
#94=LINE('',#554,#138);
#95=LINE('',#556,#139);
#96=LINE('',#557,#140);
#97=LINE('',#560,#141);
#98=LINE('',#562,#142);
#99=LINE('',#563,#143);
#100=LINE('',#566,#144);
#101=LINE('',#568,#145);
#102=LINE('',#570,#146);
#103=LINE('',#572,#147);
#104=LINE('',#574,#148);
#105=LINE('',#575,#149);
#106=LINE('',#578,#150);
#107=LINE('',#580,#151);
#108=LINE('',#581,#152);
#109=LINE('',#584,#153);
#110=LINE('',#585,#154);
#111=LINE('',#588,#155);
#112=LINE('',#589,#156);
#113=LINE('',#592,#157);
#114=LINE('',#593,#158);
#115=LINE('',#595,#159);
#116=LINE('',#596,#160);
#117=LINE('',#598,#161);
#118=LINE('',#599,#162);
#119=LINE('',#603,#163);
#120=LINE('',#605,#164);
#121=LINE('',#606,#165);
#122=LINE('',#609,#166);
#123=LINE('',#610,#167);
#124=LINE('',#616,#168);
#125=LINE('',#619,#169);
#126=LINE('',#620,#170);
#127=LINE('',#622,#171);
#128=VECTOR('',#429,1.5);
#129=VECTOR('',#436,1.5);
#130=VECTOR('',#441,10.);
#131=VECTOR('',#442,10.);
#132=VECTOR('',#443,10.);
#133=VECTOR('',#444,10.);
#134=VECTOR('',#447,10.);
#135=VECTOR('',#448,10.);
#136=VECTOR('',#449,10.);
#137=VECTOR('',#450,10.);
#138=VECTOR('',#453,10.);
#139=VECTOR('',#454,10.);
#140=VECTOR('',#455,10.);
#141=VECTOR('',#458,10.);
#142=VECTOR('',#459,10.);
#143=VECTOR('',#460,10.);
#144=VECTOR('',#463,10.);
#145=VECTOR('',#464,10.);
#146=VECTOR('',#465,10.);
#147=VECTOR('',#466,10.);
#148=VECTOR('',#467,10.);
#149=VECTOR('',#468,10.);
#150=VECTOR('',#471,10.);
#151=VECTOR('',#472,10.);
#152=VECTOR('',#473,10.);
#153=VECTOR('',#476,10.);
#154=VECTOR('',#477,10.);
#155=VECTOR('',#480,10.);
#156=VECTOR('',#481,10.);
#157=VECTOR('',#484,10.);
#158=VECTOR('',#485,10.);
#159=VECTOR('',#488,10.);
#160=VECTOR('',#489,10.);
#161=VECTOR('',#492,10.);
#162=VECTOR('',#493,10.);
#163=VECTOR('',#498,10.);
#164=VECTOR('',#499,10.);
#165=VECTOR('',#500,10.);
#166=VECTOR('',#503,10.);
#167=VECTOR('',#504,10.);
#168=VECTOR('',#511,1.);
#169=VECTOR('',#514,10.);
#170=VECTOR('',#515,10.);
#171=VECTOR('',#518,10.);
#172=CIRCLE('',#398,1.5);
#173=CIRCLE('',#399,1.5);
#174=CIRCLE('',#401,1.5);
#175=CIRCLE('',#402,1.5);
#176=CIRCLE('',#417,1.);
#177=CIRCLE('',#419,1.);
#178=VERTEX_POINT('',#523);
#179=VERTEX_POINT('',#525);
#180=VERTEX_POINT('',#529);
#181=VERTEX_POINT('',#531);
#182=VERTEX_POINT('',#535);
#183=VERTEX_POINT('',#536);
#184=VERTEX_POINT('',#538);
#185=VERTEX_POINT('',#540);
#186=VERTEX_POINT('',#544);
#187=VERTEX_POINT('',#545);
#188=VERTEX_POINT('',#547);
#189=VERTEX_POINT('',#549);
#190=VERTEX_POINT('',#553);
#191=VERTEX_POINT('',#555);
#192=VERTEX_POINT('',#559);
#193=VERTEX_POINT('',#561);
#194=VERTEX_POINT('',#565);
#195=VERTEX_POINT('',#567);
#196=VERTEX_POINT('',#569);
#197=VERTEX_POINT('',#571);
#198=VERTEX_POINT('',#573);
#199=VERTEX_POINT('',#577);
#200=VERTEX_POINT('',#579);
#201=VERTEX_POINT('',#583);
#202=VERTEX_POINT('',#587);
#203=VERTEX_POINT('',#591);
#204=VERTEX_POINT('',#602);
#205=VERTEX_POINT('',#604);
#206=VERTEX_POINT('',#608);
#207=VERTEX_POINT('',#611);
#208=VERTEX_POINT('',#614);
#209=VERTEX_POINT('',#618);
#210=EDGE_CURVE('',#178,#178,#172,.T.);
#211=EDGE_CURVE('',#178,#179,#84,.T.);
#212=EDGE_CURVE('',#179,#179,#173,.T.);
#213=EDGE_CURVE('',#180,#180,#174,.T.);
#214=EDGE_CURVE('',#180,#181,#85,.T.);
#215=EDGE_CURVE('',#181,#181,#175,.T.);
#216=EDGE_CURVE('',#182,#183,#86,.T.);
#217=EDGE_CURVE('',#184,#182,#87,.T.);
#218=EDGE_CURVE('',#185,#184,#88,.T.);
#219=EDGE_CURVE('',#185,#183,#89,.T.);
#220=EDGE_CURVE('',#186,#187,#90,.T.);
#221=EDGE_CURVE('',#186,#188,#91,.T.);
#222=EDGE_CURVE('',#189,#188,#92,.T.);
#223=EDGE_CURVE('',#187,#189,#93,.T.);
#224=EDGE_CURVE('',#183,#190,#94,.T.);
#225=EDGE_CURVE('',#191,#185,#95,.T.);
#226=EDGE_CURVE('',#191,#190,#96,.T.);
#227=EDGE_CURVE('',#192,#186,#97,.T.);
#228=EDGE_CURVE('',#192,#193,#98,.T.);
#229=EDGE_CURVE('',#188,#193,#99,.T.);
#230=EDGE_CURVE('',#184,#194,#100,.T.);
#231=EDGE_CURVE('',#194,#195,#101,.T.);
#232=EDGE_CURVE('',#195,#196,#102,.T.);
#233=EDGE_CURVE('',#196,#197,#103,.T.);
#234=EDGE_CURVE('',#197,#198,#104,.T.);
#235=EDGE_CURVE('',#198,#191,#105,.T.);
#236=EDGE_CURVE('',#199,#194,#106,.T.);
#237=EDGE_CURVE('',#200,#199,#107,.T.);
#238=EDGE_CURVE('',#195,#200,#108,.T.);
#239=EDGE_CURVE('',#201,#200,#109,.T.);
#240=EDGE_CURVE('',#196,#201,#110,.T.);
#241=EDGE_CURVE('',#202,#201,#111,.T.);
#242=EDGE_CURVE('',#197,#202,#112,.T.);
#243=EDGE_CURVE('',#203,#202,#113,.T.);
#244=EDGE_CURVE('',#198,#203,#114,.T.);
#245=EDGE_CURVE('',#193,#203,#115,.T.);
#246=EDGE_CURVE('',#190,#192,#116,.T.);
#247=EDGE_CURVE('',#187,#182,#117,.T.);
#248=EDGE_CURVE('',#199,#189,#118,.T.);
#249=EDGE_CURVE('',#204,#182,#119,.T.);
#250=EDGE_CURVE('',#204,#205,#120,.T.);
#251=EDGE_CURVE('',#187,#205,#121,.T.);
#252=EDGE_CURVE('',#190,#206,#122,.T.);
#253=EDGE_CURVE('',#206,#204,#123,.T.);
#254=EDGE_CURVE('',#207,#207,#176,.T.);
#255=EDGE_CURVE('',#208,#208,#177,.T.);
#256=EDGE_CURVE('',#208,#207,#124,.T.);
#257=EDGE_CURVE('',#209,#206,#125,.T.);
#258=EDGE_CURVE('',#205,#209,#126,.T.);
#259=EDGE_CURVE('',#209,#192,#127,.T.);
#260=ORIENTED_EDGE('',*,*,#210,.F.);
#261=ORIENTED_EDGE('',*,*,#211,.T.);
#262=ORIENTED_EDGE('',*,*,#212,.F.);
#263=ORIENTED_EDGE('',*,*,#211,.F.);
#264=ORIENTED_EDGE('',*,*,#213,.F.);
#265=ORIENTED_EDGE('',*,*,#214,.T.);
#266=ORIENTED_EDGE('',*,*,#215,.F.);
#267=ORIENTED_EDGE('',*,*,#214,.F.);
#268=ORIENTED_EDGE('',*,*,#216,.F.);
#269=ORIENTED_EDGE('',*,*,#217,.F.);
#270=ORIENTED_EDGE('',*,*,#218,.F.);
#271=ORIENTED_EDGE('',*,*,#219,.T.);
#272=ORIENTED_EDGE('',*,*,#220,.F.);
#273=ORIENTED_EDGE('',*,*,#221,.T.);
#274=ORIENTED_EDGE('',*,*,#222,.F.);
#275=ORIENTED_EDGE('',*,*,#223,.F.);
#276=ORIENTED_EDGE('',*,*,#224,.F.);
#277=ORIENTED_EDGE('',*,*,#219,.F.);
#278=ORIENTED_EDGE('',*,*,#225,.F.);
#279=ORIENTED_EDGE('',*,*,#226,.T.);
#280=ORIENTED_EDGE('',*,*,#227,.F.);
#281=ORIENTED_EDGE('',*,*,#228,.T.);
#282=ORIENTED_EDGE('',*,*,#229,.F.);
#283=ORIENTED_EDGE('',*,*,#221,.F.);
#284=ORIENTED_EDGE('',*,*,#230,.T.);
#285=ORIENTED_EDGE('',*,*,#231,.T.);
#286=ORIENTED_EDGE('',*,*,#232,.T.);
#287=ORIENTED_EDGE('',*,*,#233,.T.);
#288=ORIENTED_EDGE('',*,*,#234,.T.);
#289=ORIENTED_EDGE('',*,*,#235,.T.);
#290=ORIENTED_EDGE('',*,*,#225,.T.);
#291=ORIENTED_EDGE('',*,*,#218,.T.);
#292=ORIENTED_EDGE('',*,*,#236,.F.);
#293=ORIENTED_EDGE('',*,*,#237,.F.);
#294=ORIENTED_EDGE('',*,*,#238,.F.);
#295=ORIENTED_EDGE('',*,*,#231,.F.);
#296=ORIENTED_EDGE('',*,*,#238,.T.);
#297=ORIENTED_EDGE('',*,*,#239,.F.);
#298=ORIENTED_EDGE('',*,*,#240,.F.);
#299=ORIENTED_EDGE('',*,*,#232,.F.);
#300=ORIENTED_EDGE('',*,*,#240,.T.);
#301=ORIENTED_EDGE('',*,*,#241,.F.);
#302=ORIENTED_EDGE('',*,*,#242,.F.);
#303=ORIENTED_EDGE('',*,*,#233,.F.);
#304=ORIENTED_EDGE('',*,*,#212,.T.);
#305=ORIENTED_EDGE('',*,*,#215,.T.);
#306=ORIENTED_EDGE('',*,*,#242,.T.);
#307=ORIENTED_EDGE('',*,*,#243,.F.);
#308=ORIENTED_EDGE('',*,*,#244,.F.);
#309=ORIENTED_EDGE('',*,*,#234,.F.);
#310=ORIENTED_EDGE('',*,*,#244,.T.);
#311=ORIENTED_EDGE('',*,*,#245,.F.);
#312=ORIENTED_EDGE('',*,*,#228,.F.);
#313=ORIENTED_EDGE('',*,*,#246,.F.);
#314=ORIENTED_EDGE('',*,*,#226,.F.);
#315=ORIENTED_EDGE('',*,*,#235,.F.);
#316=ORIENTED_EDGE('',*,*,#213,.T.);
#317=ORIENTED_EDGE('',*,*,#217,.T.);
#318=ORIENTED_EDGE('',*,*,#247,.F.);
#319=ORIENTED_EDGE('',*,*,#223,.T.);
#320=ORIENTED_EDGE('',*,*,#248,.F.);
#321=ORIENTED_EDGE('',*,*,#236,.T.);
#322=ORIENTED_EDGE('',*,*,#230,.F.);
#323=ORIENTED_EDGE('',*,*,#210,.T.);
#324=ORIENTED_EDGE('',*,*,#248,.T.);
#325=ORIENTED_EDGE('',*,*,#222,.T.);
#326=ORIENTED_EDGE('',*,*,#229,.T.);
#327=ORIENTED_EDGE('',*,*,#245,.T.);
#328=ORIENTED_EDGE('',*,*,#243,.T.);
#329=ORIENTED_EDGE('',*,*,#241,.T.);
#330=ORIENTED_EDGE('',*,*,#239,.T.);
#331=ORIENTED_EDGE('',*,*,#237,.T.);
#332=ORIENTED_EDGE('',*,*,#247,.T.);
#333=ORIENTED_EDGE('',*,*,#249,.F.);
#334=ORIENTED_EDGE('',*,*,#250,.T.);
#335=ORIENTED_EDGE('',*,*,#251,.F.);
#336=ORIENTED_EDGE('',*,*,#252,.T.);
#337=ORIENTED_EDGE('',*,*,#253,.T.);
#338=ORIENTED_EDGE('',*,*,#249,.T.);
#339=ORIENTED_EDGE('',*,*,#216,.T.);
#340=ORIENTED_EDGE('',*,*,#224,.T.);
#341=ORIENTED_EDGE('',*,*,#254,.T.);
#342=ORIENTED_EDGE('',*,*,#255,.F.);
#343=ORIENTED_EDGE('',*,*,#256,.T.);
#344=ORIENTED_EDGE('',*,*,#254,.F.);
#345=ORIENTED_EDGE('',*,*,#256,.F.);
#346=ORIENTED_EDGE('',*,*,#257,.F.);
#347=ORIENTED_EDGE('',*,*,#258,.F.);
#348=ORIENTED_EDGE('',*,*,#250,.F.);
#349=ORIENTED_EDGE('',*,*,#253,.F.);
#350=ORIENTED_EDGE('',*,*,#246,.T.);
#351=ORIENTED_EDGE('',*,*,#259,.F.);
#352=ORIENTED_EDGE('',*,*,#257,.T.);
#353=ORIENTED_EDGE('',*,*,#252,.F.);
#354=ORIENTED_EDGE('',*,*,#259,.T.);
#355=ORIENTED_EDGE('',*,*,#227,.T.);
#356=ORIENTED_EDGE('',*,*,#220,.T.);
#357=ORIENTED_EDGE('',*,*,#251,.T.);
#358=ORIENTED_EDGE('',*,*,#258,.T.);
#359=ORIENTED_EDGE('',*,*,#255,.T.);
#360=CYLINDRICAL_SURFACE('',#397,1.5);
#361=CYLINDRICAL_SURFACE('',#400,1.5);
#362=CYLINDRICAL_SURFACE('',#418,1.);
#363=ADVANCED_FACE('',(#38),#360,.F.);
#364=ADVANCED_FACE('',(#39),#361,.F.);
#365=ADVANCED_FACE('',(#40),#21,.T.);
#366=ADVANCED_FACE('',(#41),#22,.T.);
#367=ADVANCED_FACE('',(#42),#23,.T.);
#368=ADVANCED_FACE('',(#43),#24,.T.);
#369=ADVANCED_FACE('',(#44),#25,.T.);
#370=ADVANCED_FACE('',(#45),#26,.T.);
#371=ADVANCED_FACE('',(#46),#27,.T.);
#372=ADVANCED_FACE('',(#47,#15,#16),#28,.T.);
#373=ADVANCED_FACE('',(#48),#29,.T.);
#374=ADVANCED_FACE('',(#49,#17),#30,.T.);
#375=ADVANCED_FACE('',(#50,#18),#31,.T.);
#376=ADVANCED_FACE('',(#51),#32,.T.);
#377=ADVANCED_FACE('',(#52),#33,.T.);
#378=ADVANCED_FACE('',(#53,#19),#34,.F.);
#379=ADVANCED_FACE('',(#54),#362,.F.);
#380=ADVANCED_FACE('',(#55),#35,.T.);
#381=ADVANCED_FACE('',(#56),#36,.T.);
#382=ADVANCED_FACE('',(#57,#20),#37,.T.);
#383=CLOSED_SHELL('',(#363,#364,#365,#366,#367,#368,#369,#370,#371,#372,
#373,#374,#375,#376,#377,#378,#379,#380,#381,#382));
#384=DERIVED_UNIT_ELEMENT(#386,1.);
#385=DERIVED_UNIT_ELEMENT(#629,-3.);
#386=(
MASS_UNIT()
NAMED_UNIT(*)
SI_UNIT(.KILO.,.GRAM.)
);
#387=DERIVED_UNIT((#384,#385));
#388=MEASURE_REPRESENTATION_ITEM('density measure',
POSITIVE_RATIO_MEASURE(7850.),#387);
#389=PROPERTY_DEFINITION_REPRESENTATION(#394,#391);
#390=PROPERTY_DEFINITION_REPRESENTATION(#395,#392);
#391=REPRESENTATION('material name',(#393),#626);
#392=REPRESENTATION('density',(#388),#626);
#393=DESCRIPTIVE_REPRESENTATION_ITEM('Acier','Acier');
#394=PROPERTY_DEFINITION('material property','material name',#636);
#395=PROPERTY_DEFINITION('material property','density of part',#636);
#396=AXIS2_PLACEMENT_3D('',#521,#423,#424);
#397=AXIS2_PLACEMENT_3D('',#522,#425,#426);
#398=AXIS2_PLACEMENT_3D('',#524,#427,#428);
#399=AXIS2_PLACEMENT_3D('',#527,#430,#431);
#400=AXIS2_PLACEMENT_3D('',#528,#432,#433);
#401=AXIS2_PLACEMENT_3D('',#530,#434,#435);
#402=AXIS2_PLACEMENT_3D('',#533,#437,#438);
#403=AXIS2_PLACEMENT_3D('',#534,#439,#440);
#404=AXIS2_PLACEMENT_3D('',#543,#445,#446);
#405=AXIS2_PLACEMENT_3D('',#552,#451,#452);
#406=AXIS2_PLACEMENT_3D('',#558,#456,#457);
#407=AXIS2_PLACEMENT_3D('',#564,#461,#462);
#408=AXIS2_PLACEMENT_3D('',#576,#469,#470);
#409=AXIS2_PLACEMENT_3D('',#582,#474,#475);
#410=AXIS2_PLACEMENT_3D('',#586,#478,#479);
#411=AXIS2_PLACEMENT_3D('',#590,#482,#483);
#412=AXIS2_PLACEMENT_3D('',#594,#486,#487);
#413=AXIS2_PLACEMENT_3D('',#597,#490,#491);
#414=AXIS2_PLACEMENT_3D('',#600,#494,#495);
#415=AXIS2_PLACEMENT_3D('',#601,#496,#497);
#416=AXIS2_PLACEMENT_3D('',#607,#501,#502);
#417=AXIS2_PLACEMENT_3D('',#612,#505,#506);
#418=AXIS2_PLACEMENT_3D('',#613,#507,#508);
#419=AXIS2_PLACEMENT_3D('',#615,#509,#510);
#420=AXIS2_PLACEMENT_3D('',#617,#512,#513);
#421=AXIS2_PLACEMENT_3D('',#621,#516,#517);
#422=AXIS2_PLACEMENT_3D('',#623,#519,#520);
#423=DIRECTION('axis',(0.,0.,1.));
#424=DIRECTION('refdir',(1.,0.,0.));
#425=DIRECTION('center_axis',(0.,-1.,0.));
#426=DIRECTION('ref_axis',(0.,0.,1.));
#427=DIRECTION('center_axis',(0.,-1.,0.));
#428=DIRECTION('ref_axis',(0.,0.,1.));
#429=DIRECTION('',(0.,-1.,0.));
#430=DIRECTION('center_axis',(-6.12327336145847E-17,1.,0.));
#431=DIRECTION('ref_axis',(0.,0.,1.));
#432=DIRECTION('center_axis',(-2.22044604925031E-16,-1.,0.));
#433=DIRECTION('ref_axis',(0.,0.,1.));
#434=DIRECTION('center_axis',(-1.38777878078145E-16,-1.,0.));
#435=DIRECTION('ref_axis',(0.,0.,1.));
#436=DIRECTION('',(-2.22044604925031E-16,-1.,0.));
#437=DIRECTION('center_axis',(-6.12327336145847E-17,1.,0.));
#438=DIRECTION('ref_axis',(0.,0.,1.));
#439=DIRECTION('center_axis',(-1.,0.,0.));
#440=DIRECTION('ref_axis',(0.,-1.,0.));
#441=DIRECTION('',(0.,-1.,0.));
#442=DIRECTION('',(0.,0.,1.));
#443=DIRECTION('',(0.,1.,0.));
#444=DIRECTION('',(0.,0.,1.));
#445=DIRECTION('center_axis',(-1.,0.,0.));
#446=DIRECTION('ref_axis',(0.,-1.,0.));
#447=DIRECTION('',(0.,1.,0.));
#448=DIRECTION('',(0.,0.,1.));
#449=DIRECTION('',(0.,-1.,0.));
#450=DIRECTION('',(0.,0.,1.));
#451=DIRECTION('center_axis',(0.00354851418530988,0.999993704003719,0.));
#452=DIRECTION('ref_axis',(-0.999993704003719,0.00354851418530988,2.30463228612562E-16));
#453=DIRECTION('',(-0.999993704003719,0.00354851418530988,2.30463228612562E-16));
#454=DIRECTION('',(0.999993704003719,-0.00354851418530988,-2.30463228612562E-16));
#455=DIRECTION('',(0.,0.,1.));
#456=DIRECTION('center_axis',(0.00354851418530988,0.999993704003719,0.));
#457=DIRECTION('ref_axis',(-0.999993704003719,0.00354851418530988,2.30463228612562E-16));
#458=DIRECTION('',(0.999993704003719,-0.00354851418530988,-2.30463228612562E-16));
#459=DIRECTION('',(0.,0.,1.));
#460=DIRECTION('',(-0.999993704003719,0.00354851418530988,2.30463228612562E-16));
#461=DIRECTION('center_axis',(0.,0.,-1.));
#462=DIRECTION('ref_axis',(-1.,0.,0.));
#463=DIRECTION('',(1.,0.,0.));
#464=DIRECTION('',(0.,-1.,0.));
#465=DIRECTION('',(-0.999990648502901,-0.00432468573976785,3.5512560642986E-16));
#466=DIRECTION('',(-1.,-6.12327336145847E-17,0.));
#467=DIRECTION('',(-0.00604475748499593,0.999981730286583,0.));
#468=DIRECTION('',(1.,-1.38777878078145E-16,0.));
#469=DIRECTION('center_axis',(1.,0.,0.));
#470=DIRECTION('ref_axis',(0.,1.,0.));
#471=DIRECTION('',(0.,0.,-1.));
#472=DIRECTION('',(0.,1.,0.));
#473=DIRECTION('',(0.,0.,1.));
#474=DIRECTION('center_axis',(0.00432468573976785,-0.999990648502901,0.));
#475=DIRECTION('ref_axis',(0.999990648502901,0.00432468573976785,-3.5512560642986E-16));
#476=DIRECTION('',(0.999990648502901,0.00432468573976785,-3.5512560642986E-16));
#477=DIRECTION('',(0.,0.,1.));
#478=DIRECTION('center_axis',(6.12327336145847E-17,-1.,0.));
#479=DIRECTION('ref_axis',(1.,6.12327336145847E-17,0.));
#480=DIRECTION('',(1.,6.12327336145847E-17,0.));
#481=DIRECTION('',(0.,0.,1.));
#482=DIRECTION('center_axis',(-0.999981730286583,-0.00604475748499593,0.));
#483=DIRECTION('ref_axis',(0.00604475748499593,-0.999981730286583,0.));
#484=DIRECTION('',(0.00604475748499593,-0.999981730286583,0.));
#485=DIRECTION('',(0.,0.,1.));
#486=DIRECTION('center_axis',(1.38777878078145E-16,1.,0.));
#487=DIRECTION('ref_axis',(-1.,1.38777878078145E-16,0.));
#488=DIRECTION('',(-1.,1.38777878078145E-16,0.));
#489=DIRECTION('',(0.,0.,1.));
#490=DIRECTION('center_axis',(0.,1.,0.));
#491=DIRECTION('ref_axis',(-1.,0.,0.));
#492=DIRECTION('',(0.,0.,-1.));
#493=DIRECTION('',(-1.,0.,0.));
#494=DIRECTION('center_axis',(0.,0.,1.));
#495=DIRECTION('ref_axis',(1.,0.,0.));
#496=DIRECTION('center_axis',(1.,0.,0.));
#497=DIRECTION('ref_axis',(0.,1.,0.));
#498=DIRECTION('',(0.,-1.,0.));
#499=DIRECTION('',(0.,0.,1.));
#500=DIRECTION('',(0.,1.,0.));
#501=DIRECTION('center_axis',(0.,0.,1.));
#502=DIRECTION('ref_axis',(1.,0.,0.));
#503=DIRECTION('',(0.,1.,0.));
#504=DIRECTION('',(1.,0.,-2.00587561779336E-16));
#505=DIRECTION('center_axis',(0.,0.,1.));
#506=DIRECTION('ref_axis',(1.,0.,0.));
#507=DIRECTION('center_axis',(0.,0.,1.));
#508=DIRECTION('ref_axis',(1.,0.,0.));
#509=DIRECTION('center_axis',(0.,0.,-1.));
#510=DIRECTION('ref_axis',(1.,0.,0.));
#511=DIRECTION('',(0.,0.,-1.));
#512=DIRECTION('center_axis',(0.,1.,0.));
#513=DIRECTION('ref_axis',(-1.,0.,2.00587561779336E-16));
#514=DIRECTION('',(0.,0.,-1.));
#515=DIRECTION('',(-1.,0.,2.00587561779336E-16));
#516=DIRECTION('center_axis',(-1.,0.,0.));
#517=DIRECTION('ref_axis',(0.,-1.,0.));
#518=DIRECTION('',(0.,-1.,0.));
#519=DIRECTION('center_axis',(0.,0.,1.));
#520=DIRECTION('ref_axis',(1.,0.,0.));
#521=CARTESIAN_POINT('',(0.,0.,0.));
#522=CARTESIAN_POINT('Origin',(18.0579127503205,1.06662546273819,0.0200640053787016));
#523=CARTESIAN_POINT('',(18.0579127503205,3.06662546273819,-1.4799359946213));
#524=CARTESIAN_POINT('Origin',(18.0579127503205,3.06662546273819,0.0200640053787016));
#525=CARTESIAN_POINT('',(18.0579127503205,-1.38777878078145E-15,-1.4799359946213));
#526=CARTESIAN_POINT('',(18.0579127503205,1.06662546273819,-1.4799359946213));
#527=CARTESIAN_POINT('Origin',(18.0579127503205,-1.38777878078145E-15,0.0200640053787016));
#528=CARTESIAN_POINT('Origin',(-13.5104824235669,1.06662546273819,0.));
#529=CARTESIAN_POINT('',(-13.5104824235669,3.06662546273819,-1.5));
#530=CARTESIAN_POINT('Origin',(-13.5104824235669,3.06662546273819,0.));
#531=CARTESIAN_POINT('',(-13.5104824235669,-3.60822483003176E-15,-1.5));
#532=CARTESIAN_POINT('',(-13.5104824235669,1.06662546273819,-1.5));
#533=CARTESIAN_POINT('Origin',(-13.5104824235669,-3.60822483003176E-15,
0.));
#534=CARTESIAN_POINT('Origin',(6.48976929094955,3.06662546273819,-2.30470480747866E-15));
#535=CARTESIAN_POINT('',(6.48976929094955,3.06662546273819,-1.5));
#536=CARTESIAN_POINT('',(6.48976929094954,3.0311392042512,-1.5));
#537=CARTESIAN_POINT('',(6.48976929094955,3.0311392042512,-1.5));
#538=CARTESIAN_POINT('',(6.48976929094955,3.06662546273819,-5.));
#539=CARTESIAN_POINT('',(6.48976929094955,3.06662546273819,-2.30470480747866E-15));
#540=CARTESIAN_POINT('',(6.48976929094954,3.0311392042512,-5.));
#541=CARTESIAN_POINT('',(6.48976929094955,3.0311392042512,-5.));
#542=CARTESIAN_POINT('',(6.48976929094954,3.0311392042512,-2.30470480747866E-15));
#543=CARTESIAN_POINT('Origin',(6.48976929094955,3.06662546273819,-2.30470480747866E-15));
#544=CARTESIAN_POINT('',(6.48976929094954,3.0311392042512,1.5));
#545=CARTESIAN_POINT('',(6.48976929094955,3.06662546273819,1.5));
#546=CARTESIAN_POINT('',(6.48976929094955,3.0311392042512,1.5));
#547=CARTESIAN_POINT('',(6.48976929094954,3.0311392042512,5.));
#548=CARTESIAN_POINT('',(6.48976929094954,3.0311392042512,-2.30470480747866E-15));
#549=CARTESIAN_POINT('',(6.48976929094955,3.06662546273819,5.));
#550=CARTESIAN_POINT('',(6.48976929094955,3.0311392042512,5.));
#551=CARTESIAN_POINT('',(6.48976929094955,3.06662546273819,-2.30470480747866E-15));
#552=CARTESIAN_POINT('Origin',(6.48976929094954,3.0311392042512,-2.30470480747866E-15));
#553=CARTESIAN_POINT('',(-3.51048242356688,3.06662546273819,-1.5));
#554=CARTESIAN_POINT('',(-3.51048242356688,3.06662546273819,-1.5));
#555=CARTESIAN_POINT('',(-3.51048242356688,3.06662546273819,-5.));
#556=CARTESIAN_POINT('',(-3.51048242356688,3.06662546273819,-5.));
#557=CARTESIAN_POINT('',(-3.51048242356688,3.06662546273819,0.));
#558=CARTESIAN_POINT('Origin',(6.48976929094954,3.0311392042512,-2.30470480747866E-15));
#559=CARTESIAN_POINT('',(-3.51048242356688,3.06662546273819,1.5));
#560=CARTESIAN_POINT('',(-3.51048242356688,3.06662546273819,1.5));
#561=CARTESIAN_POINT('',(-3.51048242356688,3.06662546273819,5.));
#562=CARTESIAN_POINT('',(-3.51048242356688,3.06662546273819,0.));
#563=CARTESIAN_POINT('',(-3.51048242356688,3.06662546273819,5.));
#564=CARTESIAN_POINT('Origin',(1.48964343369133,15.,-5.));
#565=CARTESIAN_POINT('',(26.4897692909495,3.06662546273819,-5.));
#566=CARTESIAN_POINT('',(6.48976929094955,3.06662546273819,-5.));
#567=CARTESIAN_POINT('',(26.4897692909495,0.028066475170514,-5.));
#568=CARTESIAN_POINT('',(26.4897692909495,3.06662546273819,-5.));
#569=CARTESIAN_POINT('',(20.,0.,-5.));
#570=CARTESIAN_POINT('',(26.4897692909495,0.028066475170514,-5.));
#571=CARTESIAN_POINT('',(-23.4919450776753,-1.66533453693773E-15,-5.));
#572=CARTESIAN_POINT('',(0.,0.,-5.));
#573=CARTESIAN_POINT('',(-23.5104824235669,3.06662546273819,-5.));
#574=CARTESIAN_POINT('',(-23.4919450776753,-1.43847601502975E-15,-5.));
#575=CARTESIAN_POINT('',(-23.5104824235669,3.06662546273819,-5.));
#576=CARTESIAN_POINT('Origin',(26.4897692909495,0.028066475170514,-2.30470480747866E-15));
#577=CARTESIAN_POINT('',(26.4897692909495,3.06662546273819,5.));
#578=CARTESIAN_POINT('',(26.4897692909495,3.06662546273819,-2.30470480747866E-15));
#579=CARTESIAN_POINT('',(26.4897692909495,0.028066475170514,5.));
#580=CARTESIAN_POINT('',(26.4897692909495,3.06662546273819,5.));
#581=CARTESIAN_POINT('',(26.4897692909495,0.028066475170514,-2.30470480747866E-15));
#582=CARTESIAN_POINT('Origin',(20.,0.,0.));
#583=CARTESIAN_POINT('',(20.,0.,5.));
#584=CARTESIAN_POINT('',(26.4897692909495,0.028066475170514,5.));
#585=CARTESIAN_POINT('',(20.,0.,0.));
#586=CARTESIAN_POINT('Origin',(-23.4919450776753,-1.43847601502975E-15,
0.));
#587=CARTESIAN_POINT('',(-23.4919450776753,-1.66533453693773E-15,5.));
#588=CARTESIAN_POINT('',(0.,0.,5.));
#589=CARTESIAN_POINT('',(-23.4919450776753,-1.43847601502975E-15,0.));
#590=CARTESIAN_POINT('Origin',(-23.5104824235669,3.06662546273819,0.));
#591=CARTESIAN_POINT('',(-23.5104824235669,3.06662546273819,5.));
#592=CARTESIAN_POINT('',(-23.4919450776753,-1.43847601502975E-15,5.));
#593=CARTESIAN_POINT('',(-23.5104824235669,3.06662546273819,0.));
#594=CARTESIAN_POINT('Origin',(-3.51048242356688,3.06662546273819,0.));
#595=CARTESIAN_POINT('',(-23.5104824235669,3.06662546273819,5.));
#596=CARTESIAN_POINT('',(-3.51048242356688,3.06662546273819,0.));
#597=CARTESIAN_POINT('Origin',(26.4897692909495,3.06662546273819,-2.30470480747866E-15));
#598=CARTESIAN_POINT('',(6.48976929094955,3.06662546273819,-2.30470480747866E-15));
#599=CARTESIAN_POINT('',(6.48976929094955,3.06662546273819,5.));
#600=CARTESIAN_POINT('Origin',(1.48964343369133,15.,5.));
#601=CARTESIAN_POINT('Origin',(6.48976929094955,3.0311392042512,-2.30470480747866E-15));
#602=CARTESIAN_POINT('',(6.48976929094955,30.,-1.5));
#603=CARTESIAN_POINT('',(6.48976929094955,3.0311392042512,-1.5));
#604=CARTESIAN_POINT('',(6.48976929094955,30.,1.5));
#605=CARTESIAN_POINT('',(6.48976929094955,30.,-2.30470480747866E-15));
#606=CARTESIAN_POINT('',(6.48976929094955,3.0311392042512,1.5));
#607=CARTESIAN_POINT('Origin',(1.48964343369133,16.5155696021256,-1.5));
#608=CARTESIAN_POINT('',(-3.51048242356688,30.,-1.5));
#609=CARTESIAN_POINT('',(-3.51048242356688,30.,-1.5));
#610=CARTESIAN_POINT('',(6.48976929094955,30.,-1.5));
#611=CARTESIAN_POINT('',(0.489769290949545,16.4436493686985,-1.5));
#612=CARTESIAN_POINT('Origin',(1.48976929094955,16.4436493686985,-1.5));
#613=CARTESIAN_POINT('Origin',(1.48976929094955,16.4436493686985,-2.30470480747866E-15));
#614=CARTESIAN_POINT('',(0.489769290949545,16.4436493686985,1.5));
#615=CARTESIAN_POINT('Origin',(1.48976929094955,16.4436493686985,1.5));
#616=CARTESIAN_POINT('',(0.489769290949545,16.4436493686985,-2.30470480747866E-15));
#617=CARTESIAN_POINT('Origin',(6.48976929094955,30.,-2.30470480747866E-15));
#618=CARTESIAN_POINT('',(-3.51048242356688,30.,1.5));
#619=CARTESIAN_POINT('',(-3.51048242356688,30.,-2.30470480747866E-15));
#620=CARTESIAN_POINT('',(6.48976929094955,30.,1.5));
#621=CARTESIAN_POINT('Origin',(-3.51048242356688,30.,-2.30470480747866E-15));
#622=CARTESIAN_POINT('',(-3.51048242356688,30.,1.5));
#623=CARTESIAN_POINT('Origin',(1.48964343369133,16.5155696021256,1.5));
#624=UNCERTAINTY_MEASURE_WITH_UNIT(LENGTH_MEASURE(0.01),#628,
'DISTANCE_ACCURACY_VALUE',
'Maximum model space distance between geometric entities at asserted c
onnectivities');
#625=UNCERTAINTY_MEASURE_WITH_UNIT(LENGTH_MEASURE(0.01),#628,
'DISTANCE_ACCURACY_VALUE',
'Maximum model space distance between geometric entities at asserted c
onnectivities');
#626=(
GEOMETRIC_REPRESENTATION_CONTEXT(3)
GLOBAL_UNCERTAINTY_ASSIGNED_CONTEXT((#624))
GLOBAL_UNIT_ASSIGNED_CONTEXT((#628,#630,#631))
REPRESENTATION_CONTEXT('','3D')
);
#627=(
GEOMETRIC_REPRESENTATION_CONTEXT(3)
GLOBAL_UNCERTAINTY_ASSIGNED_CONTEXT((#625))
GLOBAL_UNIT_ASSIGNED_CONTEXT((#628,#630,#631))
REPRESENTATION_CONTEXT('','3D')
);
#628=(
LENGTH_UNIT()
NAMED_UNIT(*)
SI_UNIT(.MILLI.,.METRE.)
);
#629=(
LENGTH_UNIT()
NAMED_UNIT(*)
SI_UNIT($,.METRE.)
);
#630=(
NAMED_UNIT(*)
PLANE_ANGLE_UNIT()
SI_UNIT($,.RADIAN.)
);
#631=(
NAMED_UNIT(*)
SI_UNIT($,.STERADIAN.)
SOLID_ANGLE_UNIT()
);
#632=SHAPE_DEFINITION_REPRESENTATION(#633,#634);
#633=PRODUCT_DEFINITION_SHAPE('',$,#636);
#634=SHAPE_REPRESENTATION('',(#396),#626);
#635=PRODUCT_DEFINITION_CONTEXT('part definition',#640,'design');
#636=PRODUCT_DEFINITION('D\X\E9teleur (TT)','D\X\E9teleur (TT)',#637,#635);
#637=PRODUCT_DEFINITION_FORMATION('',$,#642);
#638=PRODUCT_RELATED_PRODUCT_CATEGORY('D\X\E9teleur (TT)',
'D\X\E9teleur (TT)',(#642));
#639=APPLICATION_PROTOCOL_DEFINITION('international standard',
'automotive_design',2009,#640);
#640=APPLICATION_CONTEXT(
'Core Data for Automotive Mechanical Design Process');
#641=PRODUCT_CONTEXT('part definition',#640,'mechanical');
#642=PRODUCT('D\X\E9teleur (TT)','D\X\E9teleur (TT)',$,(#641));
#643=PRESENTATION_STYLE_ASSIGNMENT((#644));
#644=SURFACE_STYLE_USAGE(.BOTH.,#645);
#645=SURFACE_SIDE_STYLE('',(#646));
#646=SURFACE_STYLE_FILL_AREA(#647);
#647=FILL_AREA_STYLE('Acier - Satin\X\E9',(#648));
#648=FILL_AREA_STYLE_COLOUR('Acier - Satin\X\E9',#649);
#649=COLOUR_RGB('Acier - Satin\X\E9',0.627450980392157,0.627450980392157,
0.627450980392157);
ENDSEC;
END-ISO-10303-21;
